Directory Website Promote http://www.freerankdirectory.com/blogs_diaries/technology/ Search Engine Submission - AddMe Teri Galliyan Tabs | Guitar Lesson | Ek Villian ~ Darshtaar-Covers on guitar

Sunday, 15 May 2016

Teri Galliyan Tabs | Guitar Lesson | Ek Villian

Teri Galliyan

E----------------------------------------------------
A----------------------------------------------------
D-------3-------------------3-----------------------
G-3-3-----3-5-6-6--3-3-----3-5-5-6-6-5/6-10-8-
B-----------------------------------------------------
e------------------------------------------------------

E--------------------------------------
A--------------------------------------
D--------------------------------------
G-3-5-6-6-6--5-6-6-6--3-1-5-5-5-
B--------------------------------------
e---------------------------------------

E-------------------------------------
A------------------------------------
D------------------------------------
G-1-3-5-5--3-5-5-5--3-5-6-6-6--
B------------------------------------
e-------------------------------------



E----------------------------
A----------------------------
D----------------------------
G-10-10-10-6-6-6-8-8-8-
B----------------------------
e-----------------------------


E--------------------------
A----------------------------
D-----------------------------
G-6-6-6-10-10-10-8-8-8--
B-------------------------------
e------------------------------


E----------------------------
A----------------------------
D----------------------------
G-10-10-10-6-6-6-8-8-8-
B----------------------------
e-----------------------------

E--------------------------
A----------------------------
D-----------------------------
G-6-6-6-10-10-10-8-8-8--
B-------------------------------
e------------------------------



E------------------------------------
A------------------------------------
D----------------------------------
G-6-8-8/10-6-8-8/10-6-8-8/10-
B-----------------------------------
e------------------------------------


E------------------------
A------------------------
D------------------------
G-6-6-5-5-5-5-5-3-5-
B------------------------
e ------------------------

E--------------------------------------
A--------------------------------------
D--------------------------------------
G-3-5-6-6-6--5-6-6-6--3-1-5-5-5-
B--------------------------------------
e---------------------------------------

E-------------------------------------
A------------------------------------
D------------------------------------
G-1-3-5-5--3-5-5-5--3-5-6-6-6--
B------------------------------------
e-------------------------------------





0 comments:

Post a Comment