Directory Website Promote http://www.freerankdirectory.com/blogs_diaries/technology/ Search Engine Submission - AddMe Jingle Bell Tabs | Guitar Lesson ~ Darshtaar-Covers on guitar

Saturday, 7 May 2016

Jingle Bell Tabs | Guitar Lesson

Jingle Bell


e-0-0-0----0-0-0--3---------0--
B-----------------------1-3------
G---------------------------------
D----------------------------------
A---------------------------------
E----------------------------------

e-1-1-1-0-0-0----------------3-
B----------------3-3-3-1-3-----
G--------------------------------
D---------------------------------
A---------------------------------
E---------------------------------

e------0------------0------------
B---------3-1-------------3-1--
G-0------------0------0-------
D-------------------------------
A-------------------------------
E-------------------------------

e--------1-0--------3--------0--
B-------------3-0------1-3-----
G-2-2---------------------------
D--------------------------------
A-------------------------------
E--------------------------------




0 comments:

Post a Comment