Directory Website Promote http://www.freerankdirectory.com/blogs_diaries/technology/ Search Engine Submission - AddMe Happy Birthday Tabs | Guitar Lesson ~ Darshtaar-Covers on guitar

Saturday, 7 May 2016

Happy Birthday Tabs | Guitar Lesson

Happy Birthday Tabs

e--------------------------------
B------------6-5---------8-6--
G-5-5-7-5--------5-5---------
D-------------------------------
A-------------------------------
E--------------------------------

e--------8-5----------------6-6-5--------
B--------------6-5-----------------6-8-6-
G-5-5----------------7--------------------
D------------------------------------------
A------------------------------------------
E-------------------------------------------

0 comments:

Post a Comment